artist Zeke
tabname Slut
downloaded from www.tablatures.tk


slut


zeke


TRANSCRIBED BY RUDY GUZMAN


guzman_84@hotmail.com


   gt1
eb:-------------------------|
Bb:-------------------------|
Gb:-------------------------|
Db:-------------------------|
Ab:-8-----8--10--8----------|
Eb:---10------------10-8-10-|

gt2
:-------------------|
:-------------------|
:-------------------|
:--777777777777777--|
:--555555555555555--|
:-------------------|

verse          
:------------------------------------------------------|
:------------------------------------------------------|
:------------------------------------------------------|
:--777777777777777--1010101010101010101010-------------|
:--555555555555555--8-8-8-8-8-8-8-8-8-8-8----888888888-|
:--------------------------------------------666666666-|


eb:-----------------------------|
Bb:-18b-18b-18b-18b-18b-18b-18b-|
Gb:-16b-16b-16b-16b-16b-16b-16b-|
Db:-----------------------------|
Ab:-----------------------------|
Eb:-----------------------------|


eb:-------------------------|
Bb:-------------------------|
Gb:-------------------------|
Db:-------------------------|
Ab:-8-----8--10--8----------|
Eb:---10------------10-8-10-|

gt2
:-------------------|
:-------------------|
:-------------------|
:--777777777777777--|
:--555555555555555--|
:-------------------|

                
:--------------------------------------------|
:--------------------------------------------|
:--------------------------------------------|
:-5----------5----------5----------5-5-5-5-5-|
:-5--555555--5--555555--5--555555--5-5-5-5-5-|
:-3--333333--3--333333--3--333333--3-3-3-3-3-|


:------------------------------------------------------|
:------------------------------------------------------|
:------------------------------------------------------|
:--777777777777777--1010101010101010101010-------------|
:--555555555555555--8-8-8-8-8-8-8-8-8-8-8----888888888-|
:--------------------------------------------666666666-|


eb:-----------------------------|
Bb:-18b-18b-18b-18b-18b-18b-18b-|
Gb:-16b-16b-16b-16b-16b-16b-16b-|
Db:-----------------------------|
Ab:-----------------------------|
Eb:-----------------------------|


eb:-------------------------|
Bb:-------------------------|
Gb:-------------------------|
Db:-------------------------|
Ab:-8-----8--10--8----------|
Eb:---10------------10-8-10-|

gt2
:-------------------|
:-------------------|
:-------------------|
:--777777777777777--|
:--555555555555555--|
:-------------------|

                
:--------------------------------------------|
:--------------------------------------------|
:--------------------------------------------|
:-5----------5----------5----------5-5-5-5-5-|
:-5--555555--5--555555--5--555555--5-5-5-5-5-|
:-3--333333--3--333333--3--333333--3-3-3-3-3-|



:----|
:----|
:----|
:--2-|
:--2-|
:--0-|